  0
SECTION
  2
HEADER
  9
$ACADVER
  1
AC1014
  9
$HANDSEED
  5
FFFF
  9
$MEASUREMENT
 70
     1
  0
ENDSEC
  0
SECTION
  2
TABLES
  0
TABLE
  2
VPORT
  5
8
330
0
100
AcDbSymbolTable
 70
     4
  0
VPORT
  5
2E
330
8
100
AcDbSymbolTableRecord
100
AcDbViewportTableRecord
  2
*ACTIVE
 70
     0
 10
0.0
 20
0.0
 11
1.0
 21
1.0
 12
210.0
 22
148.5
 13
0.0
 23
0.0
 14
10.0
 24
10.0
 15
10.0
 25
10.0
 16
0.0
 26
0.0
 36
1.0
 17
0.0
 27
0.0
 37
0.0
 40
341.0
 41
1.24
 42
50.0
 43
0.0
 44
0.0
 50
0.0
 51
0.0
 71
     0
 72
   100
 73
     1
 74
     3
 75
     0
 76
     0
 77
     0
 78
     0
  0
ENDTAB
  0
TABLE
  2
LTYPE
  5
5
330
0
100
AcDbSymbolTable
 70
     1
  0
LTYPE
  5
14
330
5
100
AcDbSymbolTableRecord
100
AcDbLinetypeTableRecord
  2
BYBLOCK
 70
     0
  3

 72
    65
 73
     0
 40
0.0
  0
LTYPE
  5
15
330
5
100
AcDbSymbolTableRecord
100
AcDbLinetypeTableRecord
  2
BYLAYER
 70
     0
  3

 72
    65
 73
     0
 40
0.0
  0
LTYPE
  5
16
330
5
100
AcDbSymbolTableRecord
100
AcDbLinetypeTableRecord
  2
CONTINUOUS
 70
     0
  3
Solid line
 72
    65
 73
     0
 40
0.0
  0
ENDTAB
  0
TABLE
  2
LAYER
  5
2
100
AcDbSymbolTable
 70
2
  0
LAYER
  5
50
100
AcDbSymbolTableRecord
100
AcDbLayerTableRecord
  2
0
 70
0
  6
CONTINUOUS
  0
LAYER
  5
51
100
AcDbSymbolTableRecord
100
AcDbLayerTableRecord
  2
Cut
 70
0
  6
CONTINUOUS
  0
ENDTAB
  0
TABLE
  2
STYLE
  5
3
330
0
100
AcDbSymbolTable
 70
     1
  0
STYLE
  5
11
330
3
100
AcDbSymbolTableRecord
100
AcDbTextStyleTableRecord
  2
STANDARD
 70
     0
 40
0.0
 41
1.0
 50
0.0
 71
     0
 42
2.5
  3
txt
  4

  0
ENDTAB
  0
TABLE
  2
VIEW
  5
6
330
0
100
AcDbSymbolTable
 70
     0
  0
ENDTAB
  0
TABLE
  2
UCS
  5
7
330
0
100
AcDbSymbolTable
 70
     0
  0
ENDTAB
  0
TABLE
  2
APPID
  5
9
330
0
100
AcDbSymbolTable
 70
     2
  0
APPID
  5
12
330
9
100
AcDbSymbolTableRecord
100
AcDbRegAppTableRecord
  2
ACAD
 70
     0
  0
ENDTAB
  0
TABLE
  2
DIMSTYLE
  5
A
330
0
100
AcDbSymbolTable
 70
     1
  0
DIMSTYLE
105
27
330
A
100
AcDbSymbolTableRecord
100
AcDbDimStyleTableRecord
  2
ISO-25
 70
     0
  3

  4

  5

  6

  7

 40
1.0
 41
2.5
 42
0.625
 43
3.75
 44
1.25
 45
0.0
 46
0.0
 47
0.0
 48
0.0
140
2.5
141
2.5
142
0.0
143
0.03937007874016
144
1.0
145
0.0
146
1.0
147
0.625
 71
     0
 72
     0
 73
     0
 74
     0
 75
     0
 76
     0
 77
     1
 78
     8
170
     0
171
     3
172
     1
173
     0
174
     0
175
     0
176
     0
177
     0
178
     0
270
     2
271
     2
272
     2
273
     2
274
     3
340
11
275
     0
280
     0
281
     0
282
     0
283
     0
284
     8
285
     0
286
     0
287
     3
288
     0
  0
ENDTAB
  0
TABLE
  2
BLOCK_RECORD
  5
1
330
0
100
AcDbSymbolTable
 70
     1
  0
BLOCK_RECORD
  5
1F
330
1
100
AcDbSymbolTableRecord
100
AcDbBlockTableRecord
  2
*MODEL_SPACE
  0
BLOCK_RECORD
  5
1B
330
1
100
AcDbSymbolTableRecord
100
AcDbBlockTableRecord
  2
*PAPER_SPACE
  0
ENDTAB
  0
ENDSEC
  0
SECTION
  2
BLOCKS
  0
BLOCK
  5
20
330
1F
100
AcDbEntity
  8
0
100
AcDbBlockBegin
  2
*MODEL_SPACE
 70
     0
 10
0.0
 20
0.0
 30
0.0
  3
*MODEL_SPACE
  1

  0
ENDBLK
  5
21
330
1F
100
AcDbEntity
  8
0
100
AcDbBlockEnd
  0
BLOCK
  5
1C
330
1B
100
AcDbEntity
 67
     1
  8
0
100
AcDbBlockBegin
  2
*PAPER_SPACE
  1

  0
ENDBLK
  5
1D
330
1B
100
AcDbEntity
 67
     1
  8
0
100
AcDbBlockEnd
  0
ENDSEC
  0
SECTION
  2
ENTITIES
  0
SPLINE
  5
100
100
AcDbEntity
  8
Cut
 62
7
100
AcDbSpline
 70
8
 71
3
 72
8
 73
4
 74
0
 40
0
 40
0
 40
0
 40
0
 40
1
 40
1
 40
1
 40
1
 10
207.500000
 20
234.483461
 30
0.0
 10
207.500000
 20
234.207321
 30
0.0
 10
207.723860
 20
233.983461
 30
0.0
 10
208.000000
 20
233.983461
 30
0.0
  0
SPLINE
  5
101
100
AcDbEntity
  8
Cut
 62
7
100
AcDbSpline
 70
8
 71
3
 72
8
 73
4
 74
0
 40
0
 40
0
 40
0
 40
0
 40
1
 40
1
 40
1
 40
1
 10
208.000000
 20
233.983461
 30
0.0
 10
208.276140
 20
233.983461
 30
0.0
 10
208.500000
 20
234.207321
 30
0.0
 10
208.500000
 20
234.483461
 30
0.0
  0
SPLINE
  5
102
100
AcDbEntity
  8
Cut
 62
7
100
AcDbSpline
 70
8
 71
3
 72
8
 73
4
 74
0
 40
0
 40
0
 40
0
 40
0
 40
1
 40
1
 40
1
 40
1
 10
208.500000
 20
234.483461
 30
0.0
 10
208.500000
 20
234.759611
 30
0.0
 10
208.276140
 20
234.983461
 30
0.0
 10
208.000000
 20
234.983461
 30
0.0
  0
SPLINE
  5
103
100
AcDbEntity
  8
Cut
 62
7
100
AcDbSpline
 70
8
 71
3
 72
8
 73
4
 74
0
 40
0
 40
0
 40
0
 40
0
 40
1
 40
1
 40
1
 40
1
 10
208.000000
 20
234.983461
 30
0.0
 10
207.723860
 20
234.983461
 30
0.0
 10
207.500000
 20
234.759611
 30
0.0
 10
207.500000
 20
234.483461
 30
0.0
  0
SPLINE
  5
104
100
AcDbEntity
  8
Cut
 62
7
100
AcDbSpline
 70
8
 71
3
 72
8
 73
4
 74
0
 40
0
 40
0
 40
0
 40
0
 40
1
 40
1
 40
1
 40
1
 10
207.500000
 20
213.483461
 30
0.0
 10
207.500000
 20
213.207321
 30
0.0
 10
207.723860
 20
212.983461
 30
0.0
 10
208.000000
 20
212.983461
 30
0.0
  0
SPLINE
  5
105
100
AcDbEntity
  8
Cut
 62
7
100
AcDbSpline
 70
8
 71
3
 72
8
 73
4
 74
0
 40
0
 40
0
 40
0
 40
0
 40
1
 40
1
 40
1
 40
1
 10
208.000000
 20
212.983461
 30
0.0
 10
208.276140
 20
212.983461
 30
0.0
 10
208.500000
 20
213.207321
 30
0.0
 10
208.500000
 20
213.483461
 30
0.0
  0
SPLINE
  5
106
100
AcDbEntity
  8
Cut
 62
7
100
AcDbSpline
 70
8
 71
3
 72
8
 73
4
 74
0
 40
0
 40
0
 40
0
 40
0
 40
1
 40
1
 40
1
 40
1
 10
208.500000
 20
213.483461
 30
0.0
 10
208.500000
 20
213.759611
 30
0.0
 10
208.276140
 20
213.983461
 30
0.0
 10
208.000000
 20
213.983461
 30
0.0
  0
SPLINE
  5
107
100
AcDbEntity
  8
Cut
 62
7
100
AcDbSpline
 70
8
 71
3
 72
8
 73
4
 74
0
 40
0
 40
0
 40
0
 40
0
 40
1
 40
1
 40
1
 40
1
 10
208.000000
 20
213.983461
 30
0.0
 10
207.723860
 20
213.983461
 30
0.0
 10
207.500000
 20
213.759611
 30
0.0
 10
207.500000
 20
213.483461
 30
0.0
  0
LWPOLYLINE
  5
108
100
AcDbEntity
  8
Cut
 62
7
100
AcDbPolyline
 90
1
 70
1
 10
207.500000
 20
234.483461
 30
0.0
  0
LWPOLYLINE
  5
109
100
AcDbEntity
  8
Cut
 62
7
100
AcDbPolyline
 90
1
 70
1
 10
207.500000
 20
213.483461
 30
0.0
  0
LWPOLYLINE
  5
10a
100
AcDbEntity
  8
Cut
 62
7
100
AcDbPolyline
 90
2
 70
0
 10
208.000000
 20
234.000000
 30
0.0
 10
208.000000
 20
214.000000
 30
0.0
  0
LWPOLYLINE
  5
10b
100
AcDbEntity
  8
Cut
 62
7
100
AcDbPolyline
 90
2
 70
0
 10
116.000000
 20
240.000008
 30
0.0
 10
83.000000
 20
240.000000
 30
0.0
  0
LWPOLYLINE
  5
10c
100
AcDbEntity
  8
Cut
 62
7
100
AcDbPolyline
 90
2
 70
0
 10
154.000000
 20
240.000008
 30
0.0
 10
119.000000
 20
240.000008
 30
0.0
  0
LWPOLYLINE
  5
10d
100
AcDbEntity
  8
Cut
 62
7
100
AcDbPolyline
 90
2
 70
0
 10
178.000000
 20
240.000008
 30
0.0
 10
160.000000
 20
240.000000
 30
0.0
  0
LWPOLYLINE
  5
10e
100
AcDbEntity
  8
Cut
 62
7
100
AcDbPolyline
 90
2
 70
0
 10
200.000000
 20
240.000008
 30
0.0
 10
181.000000
 20
240.000008
 30
0.0
  0
LWPOLYLINE
  5
10f
100
AcDbEntity
  8
Cut
 62
7
100
AcDbPolyline
 90
2
 70
0
 10
158.000000
 20
32.000000
 30
0.0
 10
158.000000
 20
49.000000
 30
0.0
  0
SPLINE
  5
110
100
AcDbEntity
  8
Cut
 62
7
100
AcDbSpline
 70
8
 71
3
 72
8
 73
4
 74
0
 40
0
 40
0
 40
0
 40
0
 40
1
 40
1
 40
1
 40
1
 10
178.029400
 20
33.000000
 30
0.0
 10
191.029400
 20
33.000000
 30
0.0
 10
191.029400
 20
48.000000
 30
0.0
 10
178.029400
 20
48.000000
 30
0.0
  0
LWPOLYLINE
  5
111
100
AcDbEntity
  8
Cut
 62
7
100
AcDbPolyline
 90
2
 70
0
 10
178.000000
 20
33.000000
 30
0.0
 10
178.029400
 20
33.000000
 30
0.0
  0
SPLINE
  5
112
100
AcDbEntity
  8
Cut
 62
7
100
AcDbSpline
 70
8
 71
3
 72
8
 73
4
 74
0
 40
0
 40
0
 40
0
 40
0
 40
1
 40
1
 40
1
 40
1
 10
177.000000
 20
33.000000
 30
0.0
 10
177.000000
 20
32.723860
 30
0.0
 10
177.223860
 20
32.500000
 30
0.0
 10
177.500000
 20
32.500000
 30
0.0
  0
SPLINE
  5
113
100
AcDbEntity
  8
Cut
 62
7
100
AcDbSpline
 70
8
 71
3
 72
8
 73
4
 74
0
 40
0
 40
0
 40
0
 40
0
 40
1
 40
1
 40
1
 40
1
 10
177.500000
 20
32.500000
 30
0.0
 10
177.776140
 20
32.500000
 30
0.0
 10
178.000000
 20
32.723860
 30
0.0
 10
178.000000
 20
33.000000
 30
0.0
  0
SPLINE
  5
114
100
AcDbEntity
  8
Cut
 62
7
100
AcDbSpline
 70
8
 71
3
 72
8
 73
4
 74
0
 40
0
 40
0
 40
0
 40
0
 40
1
 40
1
 40
1
 40
1
 10
178.000000
 20
33.000000
 30
0.0
 10
178.000000
 20
33.276150
 30
0.0
 10
177.776140
 20
33.500000
 30
0.0
 10
177.500000
 20
33.500000
 30
0.0
  0
SPLINE
  5
115
100
AcDbEntity
  8
Cut
 62
7
100
AcDbSpline
 70
8
 71
3
 72
8
 73
4
 74
0
 40
0
 40
0
 40
0
 40
0
 40
1
 40
1
 40
1
 40
1
 10
177.500000
 20
33.500000
 30
0.0
 10
177.223860
 20
33.500000
 30
0.0
 10
177.000000
 20
33.276150
 30
0.0
 10
177.000000
 20
33.000000
 30
0.0
  0
LWPOLYLINE
  5
116
100
AcDbEntity
  8
Cut
 62
7
100
AcDbPolyline
 90
3
 70
0
 10
178.029400
 20
48.000000
 30
0.0
 10
178.000000
 20
48.000000
 30
0.0
 10
178.000000
 20
48.000000
 30
0.0
  0
SPLINE
  5
117
100
AcDbEntity
  8
Cut
 62
7
100
AcDbSpline
 70
8
 71
3
 72
8
 73
4
 74
0
 40
0
 40
0
 40
0
 40
0
 40
1
 40
1
 40
1
 40
1
 10
177.000000
 20
48.000000
 30
0.0
 10
177.000000
 20
47.723860
 30
0.0
 10
177.223860
 20
47.500000
 30
0.0
 10
177.500000
 20
47.500000
 30
0.0
  0
SPLINE
  5
118
100
AcDbEntity
  8
Cut
 62
7
100
AcDbSpline
 70
8
 71
3
 72
8
 73
4
 74
0
 40
0
 40
0
 40
0
 40
0
 40
1
 40
1
 40
1
 40
1
 10
177.500000
 20
47.500000
 30
0.0
 10
177.776140
 20
47.500000
 30
0.0
 10
178.000000
 20
47.723860
 30
0.0
 10
178.000000
 20
48.000000
 30
0.0
  0
SPLINE
  5
119
100
AcDbEntity
  8
Cut
 62
7
100
AcDbSpline
 70
8
 71
3
 72
8
 73
4
 74
0
 40
0
 40
0
 40
0
 40
0
 40
1
 40
1
 40
1
 40
1
 10
178.000000
 20
48.000000
 30
0.0
 10
178.000000
 20
48.276150
 30
0.0
 10
177.776140
 20
48.500000
 30
0.0
 10
177.500000
 20
48.500000
 30
0.0
  0
SPLINE
  5
11a
100
AcDbEntity
  8
Cut
 62
7
100
AcDbSpline
 70
8
 71
3
 72
8
 73
4
 74
0
 40
0
 40
0
 40
0
 40
0
 40
1
 40
1
 40
1
 40
1
 10
177.500000
 20
48.500000
 30
0.0
 10
177.223860
 20
48.500000
 30
0.0
 10
177.000000
 20
48.276150
 30
0.0
 10
177.000000
 20
48.000000
 30
0.0
  0
LWPOLYLINE
  5
11b
100
AcDbEntity
  8
Cut
 62
7
100
AcDbPolyline
 90
1
 70
1
 10
177.000000
 20
33.000000
 30
0.0
  0
SPLINE
  5
11c
100
AcDbEntity
  8
Cut
 62
7
100
AcDbSpline
 70
8
 71
3
 72
8
 73
4
 74
0
 40
0
 40
0
 40
0
 40
0
 40
1
 40
1
 40
1
 40
1
 10
157.500000
 20
31.483460
 30
0.0
 10
157.500000
 20
31.207320
 30
0.0
 10
157.723860
 20
30.983460
 30
0.0
 10
158.000000
 20
30.983460
 30
0.0
  0
SPLINE
  5
11d
100
AcDbEntity
  8
Cut
 62
7
100
AcDbSpline
 70
8
 71
3
 72
8
 73
4
 74
0
 40
0
 40
0
 40
0
 40
0
 40
1
 40
1
 40
1
 40
1
 10
158.000000
 20
30.983460
 30
0.0
 10
158.276140
 20
30.983460
 30
0.0
 10
158.500000
 20
31.207320
 30
0.0
 10
158.500000
 20
31.483460
 30
0.0
  0
SPLINE
  5
11e
100
AcDbEntity
  8
Cut
 62
7
100
AcDbSpline
 70
8
 71
3
 72
8
 73
4
 74
0
 40
0
 40
0
 40
0
 40
0
 40
1
 40
1
 40
1
 40
1
 10
158.500000
 20
31.483460
 30
0.0
 10
158.500000
 20
31.759610
 30
0.0
 10
158.276140
 20
31.983460
 30
0.0
 10
158.000000
 20
31.983460
 30
0.0
  0
SPLINE
  5
11f
100
AcDbEntity
  8
Cut
 62
7
100
AcDbSpline
 70
8
 71
3
 72
8
 73
4
 74
0
 40
0
 40
0
 40
0
 40
0
 40
1
 40
1
 40
1
 40
1
 10
158.000000
 20
31.983460
 30
0.0
 10
157.723860
 20
31.983460
 30
0.0
 10
157.500000
 20
31.759610
 30
0.0
 10
157.500000
 20
31.483460
 30
0.0
  0
LWPOLYLINE
  5
120
100
AcDbEntity
  8
Cut
 62
7
100
AcDbPolyline
 90
1
 70
1
 10
177.000000
 20
48.000000
 30
0.0
  0
SPLINE
  5
121
100
AcDbEntity
  8
Cut
 62
7
100
AcDbSpline
 70
8
 71
3
 72
8
 73
4
 74
0
 40
0
 40
0
 40
0
 40
0
 40
1
 40
1
 40
1
 40
1
 10
157.500000
 20
49.483460
 30
0.0
 10
157.500000
 20
49.207320
 30
0.0
 10
157.723860
 20
48.983460
 30
0.0
 10
158.000000
 20
48.983460
 30
0.0
  0
SPLINE
  5
122
100
AcDbEntity
  8
Cut
 62
7
100
AcDbSpline
 70
8
 71
3
 72
8
 73
4
 74
0
 40
0
 40
0
 40
0
 40
0
 40
1
 40
1
 40
1
 40
1
 10
158.000000
 20
48.983460
 30
0.0
 10
158.276140
 20
48.983460
 30
0.0
 10
158.500000
 20
49.207320
 30
0.0
 10
158.500000
 20
49.483460
 30
0.0
  0
SPLINE
  5
123
100
AcDbEntity
  8
Cut
 62
7
100
AcDbSpline
 70
8
 71
3
 72
8
 73
4
 74
0
 40
0
 40
0
 40
0
 40
0
 40
1
 40
1
 40
1
 40
1
 10
158.500000
 20
49.483460
 30
0.0
 10
158.500000
 20
49.759610
 30
0.0
 10
158.276140
 20
49.983460
 30
0.0
 10
158.000000
 20
49.983460
 30
0.0
  0
SPLINE
  5
124
100
AcDbEntity
  8
Cut
 62
7
100
AcDbSpline
 70
8
 71
3
 72
8
 73
4
 74
0
 40
0
 40
0
 40
0
 40
0
 40
1
 40
1
 40
1
 40
1
 10
158.000000
 20
49.983460
 30
0.0
 10
157.723860
 20
49.983460
 30
0.0
 10
157.500000
 20
49.759610
 30
0.0
 10
157.500000
 20
49.483460
 30
0.0
  0
LWPOLYLINE
  5
125
100
AcDbEntity
  8
Cut
 62
7
100
AcDbPolyline
 90
1
 70
1
 10
157.500000
 20
31.483460
 30
0.0
  0
SPLINE
  5
126
100
AcDbEntity
  8
Cut
 62
7
100
AcDbSpline
 70
8
 71
3
 72
8
 73
4
 74
0
 40
0
 40
0
 40
0
 40
0
 40
1
 40
1
 40
1
 40
1
 10
167.500000
 20
133.941790
 30
0.0
 10
167.500000
 20
133.665650
 30
0.0
 10
167.723860
 20
133.441790
 30
0.0
 10
168.000000
 20
133.441790
 30
0.0
  0
SPLINE
  5
127
100
AcDbEntity
  8
Cut
 62
7
100
AcDbSpline
 70
8
 71
3
 72
8
 73
4
 74
0
 40
0
 40
0
 40
0
 40
0
 40
1
 40
1
 40
1
 40
1
 10
168.000000
 20
133.441790
 30
0.0
 10
168.276140
 20
133.441790
 30
0.0
 10
168.500000
 20
133.665650
 30
0.0
 10
168.500000
 20
133.941790
 30
0.0
  0
SPLINE
  5
128
100
AcDbEntity
  8
Cut
 62
7
100
AcDbSpline
 70
8
 71
3
 72
8
 73
4
 74
0
 40
0
 40
0
 40
0
 40
0
 40
1
 40
1
 40
1
 40
1
 10
168.500000
 20
133.941790
 30
0.0
 10
168.500000
 20
134.217940
 30
0.0
 10
168.276140
 20
134.441790
 30
0.0
 10
168.000000
 20
134.441790
 30
0.0
  0
SPLINE
  5
129
100
AcDbEntity
  8
Cut
 62
7
100
AcDbSpline
 70
8
 71
3
 72
8
 73
4
 74
0
 40
0
 40
0
 40
0
 40
0
 40
1
 40
1
 40
1
 40
1
 10
168.000000
 20
134.441790
 30
0.0
 10
167.723860
 20
134.441790
 30
0.0
 10
167.500000
 20
134.217940
 30
0.0
 10
167.500000
 20
133.941790
 30
0.0
  0
LWPOLYLINE
  5
12a
100
AcDbEntity
  8
Cut
 62
7
100
AcDbPolyline
 90
1
 70
1
 10
157.500000
 20
49.483460
 30
0.0
  0
LWPOLYLINE
  5
12b
100
AcDbEntity
  8
Cut
 62
7
100
AcDbPolyline
 90
1
 70
1
 10
167.500000
 20
133.941790
 30
0.0
  0
LWPOLYLINE
  5
12c
100
AcDbEntity
  8
Cut
 62
7
100
AcDbPolyline
 90
2
 70
0
 10
168.000000
 20
23.000000
 30
0.0
 10
168.000000
 20
133.458330
 30
0.0
  0
LWPOLYLINE
  5
12d
100
AcDbEntity
  8
Cut
 62
7
100
AcDbPolyline
 90
2
 70
0
 10
78.000000
 20
32.000000
 30
0.0
 10
78.000000
 20
49.000000
 30
0.0
  0
SPLINE
  5
12e
100
AcDbEntity
  8
Cut
 62
7
100
AcDbSpline
 70
8
 71
3
 72
8
 73
4
 74
0
 40
0
 40
0
 40
0
 40
0
 40
1
 40
1
 40
1
 40
1
 10
57.987110
 20
33.000000
 30
0.0
 10
44.987110
 20
33.000000
 30
0.0
 10
44.987110
 20
48.000000
 30
0.0
 10
57.987110
 20
48.000000
 30
0.0
  0
LWPOLYLINE
  5
12f
100
AcDbEntity
  8
Cut
 62
7
100
AcDbPolyline
 90
2
 70
0
 10
58.000000
 20
33.000000
 30
0.0
 10
57.987110
 20
33.000000
 30
0.0
  0
SPLINE
  5
130
100
AcDbEntity
  8
Cut
 62
7
100
AcDbSpline
 70
8
 71
3
 72
8
 73
4
 74
0
 40
0
 40
0
 40
0
 40
0
 40
1
 40
1
 40
1
 40
1
 10
59.000000
 20
33.000000
 30
0.0
 10
59.000000
 20
32.723860
 30
0.0
 10
58.776142
 20
32.500000
 30
0.0
 10
58.500000
 20
32.500000
 30
0.0
  0
SPLINE
  5
131
100
AcDbEntity
  8
Cut
 62
7
100
AcDbSpline
 70
8
 71
3
 72
8
 73
4
 74
0
 40
0
 40
0
 40
0
 40
0
 40
1
 40
1
 40
1
 40
1
 10
58.500000
 20
32.500000
 30
0.0
 10
58.223857
 20
32.500000
 30
0.0
 10
58.000000
 20
32.723860
 30
0.0
 10
58.000000
 20
33.000000
 30
0.0
  0
SPLINE
  5
132
100
AcDbEntity
  8
Cut
 62
7
100
AcDbSpline
 70
8
 71
3
 72
8
 73
4
 74
0
 40
0
 40
0
 40
0
 40
0
 40
1
 40
1
 40
1
 40
1
 10
58.000000
 20
33.000000
 30
0.0
 10
58.000000
 20
33.276150
 30
0.0
 10
58.223857
 20
33.500000
 30
0.0
 10
58.500000
 20
33.500000
 30
0.0
  0
SPLINE
  5
133
100
AcDbEntity
  8
Cut
 62
7
100
AcDbSpline
 70
8
 71
3
 72
8
 73
4
 74
0
 40
0
 40
0
 40
0
 40
0
 40
1
 40
1
 40
1
 40
1
 10
58.500000
 20
33.500000
 30
0.0
 10
58.776142
 20
33.500000
 30
0.0
 10
59.000000
 20
33.276150
 30
0.0
 10
59.000000
 20
33.000000
 30
0.0
  0
LWPOLYLINE
  5
134
100
AcDbEntity
  8
Cut
 62
7
100
AcDbPolyline
 90
3
 70
0
 10
57.987110
 20
48.000000
 30
0.0
 10
58.000000
 20
48.000000
 30
0.0
 10
58.000000
 20
48.000000
 30
0.0
  0
SPLINE
  5
135
100
AcDbEntity
  8
Cut
 62
7
100
AcDbSpline
 70
8
 71
3
 72
8
 73
4
 74
0
 40
0
 40
0
 40
0
 40
0
 40
1
 40
1
 40
1
 40
1
 10
59.000000
 20
48.000000
 30
0.0
 10
59.000000
 20
47.723860
 30
0.0
 10
58.776142
 20
47.500000
 30
0.0
 10
58.500000
 20
47.500000
 30
0.0
  0
SPLINE
  5
136
100
AcDbEntity
  8
Cut
 62
7
100
AcDbSpline
 70
8
 71
3
 72
8
 73
4
 74
0
 40
0
 40
0
 40
0
 40
0
 40
1
 40
1
 40
1
 40
1
 10
58.500000
 20
47.500000
 30
0.0
 10
58.223857
 20
47.500000
 30
0.0
 10
58.000000
 20
47.723860
 30
0.0
 10
58.000000
 20
48.000000
 30
0.0
  0
SPLINE
  5
137
100
AcDbEntity
  8
Cut
 62
7
100
AcDbSpline
 70
8
 71
3
 72
8
 73
4
 74
0
 40
0
 40
0
 40
0
 40
0
 40
1
 40
1
 40
1
 40
1
 10
58.000000
 20
48.000000
 30
0.0
 10
58.000000
 20
48.276150
 30
0.0
 10
58.223857
 20
48.500000
 30
0.0
 10
58.500000
 20
48.500000
 30
0.0
  0
SPLINE
  5
138
100
AcDbEntity
  8
Cut
 62
7
100
AcDbSpline
 70
8
 71
3
 72
8
 73
4
 74
0
 40
0
 40
0
 40
0
 40
0
 40
1
 40
1
 40
1
 40
1
 10
58.500000
 20
48.500000
 30
0.0
 10
58.776142
 20
48.500000
 30
0.0
 10
59.000000
 20
48.276150
 30
0.0
 10
59.000000
 20
48.000000
 30
0.0
  0
LWPOLYLINE
  5
139
100
AcDbEntity
  8
Cut
 62
7
100
AcDbPolyline
 90
1
 70
1
 10
59.000000
 20
33.000000
 30
0.0
  0
SPLINE
  5
13a
100
AcDbEntity
  8
Cut
 62
7
100
AcDbSpline
 70
8
 71
3
 72
8
 73
4
 74
0
 40
0
 40
0
 40
0
 40
0
 40
1
 40
1
 40
1
 40
1
 10
78.500000
 20
31.483460
 30
0.0
 10
78.500000
 20
31.207320
 30
0.0
 10
78.276142
 20
30.983460
 30
0.0
 10
78.000000
 20
30.983460
 30
0.0
  0
SPLINE
  5
13b
100
AcDbEntity
  8
Cut
 62
7
100
AcDbSpline
 70
8
 71
3
 72
8
 73
4
 74
0
 40
0
 40
0
 40
0
 40
0
 40
1
 40
1
 40
1
 40
1
 10
78.000000
 20
30.983460
 30
0.0
 10
77.723857
 20
30.983460
 30
0.0
 10
77.500000
 20
31.207320
 30
0.0
 10
77.500000
 20
31.483460
 30
0.0
  0
SPLINE
  5
13c
100
AcDbEntity
  8
Cut
 62
7
100
AcDbSpline
 70
8
 71
3
 72
8
 73
4
 74
0
 40
0
 40
0
 40
0
 40
0
 40
1
 40
1
 40
1
 40
1
 10
77.500000
 20
31.483460
 30
0.0
 10
77.500000
 20
31.759610
 30
0.0
 10
77.723857
 20
31.983460
 30
0.0
 10
78.000000
 20
31.983460
 30
0.0
  0
SPLINE
  5
13d
100
AcDbEntity
  8
Cut
 62
7
100
AcDbSpline
 70
8
 71
3
 72
8
 73
4
 74
0
 40
0
 40
0
 40
0
 40
0
 40
1
 40
1
 40
1
 40
1
 10
78.000000
 20
31.983460
 30
0.0
 10
78.276142
 20
31.983460
 30
0.0
 10
78.500000
 20
31.759610
 30
0.0
 10
78.500000
 20
31.483460
 30
0.0
  0
LWPOLYLINE
  5
13e
100
AcDbEntity
  8
Cut
 62
7
100
AcDbPolyline
 90
1
 70
1
 10
59.000000
 20
48.000000
 30
0.0
  0
SPLINE
  5
13f
100
AcDbEntity
  8
Cut
 62
7
100
AcDbSpline
 70
8
 71
3
 72
8
 73
4
 74
0
 40
0
 40
0
 40
0
 40
0
 40
1
 40
1
 40
1
 40
1
 10
78.500000
 20
49.483460
 30
0.0
 10
78.500000
 20
49.207320
 30
0.0
 10
78.276142
 20
48.983460
 30
0.0
 10
78.000000
 20
48.983460
 30
0.0
  0
SPLINE
  5
140
100
AcDbEntity
  8
Cut
 62
7
100
AcDbSpline
 70
8
 71
3
 72
8
 73
4
 74
0
 40
0
 40
0
 40
0
 40
0
 40
1
 40
1
 40
1
 40
1
 10
78.000000
 20
48.983460
 30
0.0
 10
77.723857
 20
48.983460
 30
0.0
 10
77.500000
 20
49.207320
 30
0.0
 10
77.500000
 20
49.483460
 30
0.0
  0
SPLINE
  5
141
100
AcDbEntity
  8
Cut
 62
7
100
AcDbSpline
 70
8
 71
3
 72
8
 73
4
 74
0
 40
0
 40
0
 40
0
 40
0
 40
1
 40
1
 40
1
 40
1
 10
77.500000
 20
49.483460
 30
0.0
 10
77.500000
 20
49.759610
 30
0.0
 10
77.723857
 20
49.983460
 30
0.0
 10
78.000000
 20
49.983460
 30
0.0
  0
SPLINE
  5
142
100
AcDbEntity
  8
Cut
 62
7
100
AcDbSpline
 70
8
 71
3
 72
8
 73
4
 74
0
 40
0
 40
0
 40
0
 40
0
 40
1
 40
1
 40
1
 40
1
 10
78.000000
 20
49.983460
 30
0.0
 10
78.276142
 20
49.983460
 30
0.0
 10
78.500000
 20
49.759610
 30
0.0
 10
78.500000
 20
49.483460
 30
0.0
  0
LWPOLYLINE
  5
143
100
AcDbEntity
  8
Cut
 62
7
100
AcDbPolyline
 90
1
 70
1
 10
78.500000
 20
31.483460
 30
0.0
  0
SPLINE
  5
144
100
AcDbEntity
  8
Cut
 62
7
100
AcDbSpline
 70
8
 71
3
 72
8
 73
4
 74
0
 40
0
 40
0
 40
0
 40
0
 40
1
 40
1
 40
1
 40
1
 10
68.500000
 20
133.941790
 30
0.0
 10
68.500000
 20
133.665650
 30
0.0
 10
68.276142
 20
133.441790
 30
0.0
 10
68.000000
 20
133.441790
 30
0.0
  0
SPLINE
  5
145
100
AcDbEntity
  8
Cut
 62
7
100
AcDbSpline
 70
8
 71
3
 72
8
 73
4
 74
0
 40
0
 40
0
 40
0
 40
0
 40
1
 40
1
 40
1
 40
1
 10
68.000000
 20
133.441790
 30
0.0
 10
67.723857
 20
133.441790
 30
0.0
 10
67.500000
 20
133.665650
 30
0.0
 10
67.500000
 20
133.941790
 30
0.0
  0
SPLINE
  5
146
100
AcDbEntity
  8
Cut
 62
7
100
AcDbSpline
 70
8
 71
3
 72
8
 73
4
 74
0
 40
0
 40
0
 40
0
 40
0
 40
1
 40
1
 40
1
 40
1
 10
67.500000
 20
133.941790
 30
0.0
 10
67.500000
 20
134.217940
 30
0.0
 10
67.723857
 20
134.441790
 30
0.0
 10
68.000000
 20
134.441790
 30
0.0
  0
SPLINE
  5
147
100
AcDbEntity
  8
Cut
 62
7
100
AcDbSpline
 70
8
 71
3
 72
8
 73
4
 74
0
 40
0
 40
0
 40
0
 40
0
 40
1
 40
1
 40
1
 40
1
 10
68.000000
 20
134.441790
 30
0.0
 10
68.276142
 20
134.441790
 30
0.0
 10
68.500000
 20
134.217940
 30
0.0
 10
68.500000
 20
133.941790
 30
0.0
  0
LWPOLYLINE
  5
148
100
AcDbEntity
  8
Cut
 62
7
100
AcDbPolyline
 90
1
 70
1
 10
78.500000
 20
49.483460
 30
0.0
  0
LWPOLYLINE
  5
149
100
AcDbEntity
  8
Cut
 62
7
100
AcDbPolyline
 90
1
 70
1
 10
68.500000
 20
133.941790
 30
0.0
  0
LWPOLYLINE
  5
14a
100
AcDbEntity
  8
Cut
 62
7
100
AcDbPolyline
 90
2
 70
0
 10
68.000000
 20
23.000000
 30
0.0
 10
68.000000
 20
133.458330
 30
0.0
  0
LWPOLYLINE
  5
14b
100
AcDbEntity
  8
Cut
 62
7
100
AcDbPolyline
 90
2
 70
0
 10
203.000000
 20
208.000000
 30
0.0
 10
217.000000
 20
208.000000
 30
0.0
  0
LWPOLYLINE
  5
14c
100
AcDbEntity
  8
Cut
 62
7
100
AcDbPolyline
 90
2
 70
0
 10
23.000000
 20
293.399456
 30
0.0
 10
23.000000
 20
292.199320
 30
0.0
  0
LWPOLYLINE
  5
14d
100
AcDbEntity
  8
Cut
 62
7
100
AcDbPolyline
 90
2
 70
0
 10
23.000000
 20
291.000276
 30
0.0
 10
23.000000
 20
289.800719
 30
0.0
  0
LWPOLYLINE
  5
14e
100
AcDbEntity
  8
Cut
 62
7
100
AcDbPolyline
 90
2
 70
0
 10
23.000000
 20
288.599978
 30
0.0
 10
23.000000
 20
287.400015
 30
0.0
  0
LWPOLYLINE
  5
14f
100
AcDbEntity
  8
Cut
 62
7
100
AcDbPolyline
 90
2
 70
0
 10
23.000000
 20
286.200365
 30
0.0
 10
23.000000
 20
285.000036
 30
0.0
  0
LWPOLYLINE
  5
150
100
AcDbEntity
  8
Cut
 62
7
100
AcDbPolyline
 90
2
 70
0
 10
23.000000
 20
283.799286
 30
0.0
 10
23.000000
 20
282.599437
 30
0.0
  0
LWPOLYLINE
  5
151
100
AcDbEntity
  8
Cut
 62
7
100
AcDbPolyline
 90
2
 70
0
 10
23.000000
 20
281.399101
 30
0.0
 10
23.000000
 20
280.199098
 30
0.0
  0
LWPOLYLINE
  5
152
100
AcDbEntity
  8
Cut
 62
7
100
AcDbPolyline
 90
2
 70
0
 10
23.000000
 20
279.000000
 30
0.0
 10
23.000000
 20
277.799464
 30
0.0
  0
SPLINE
  5
153
100
AcDbEntity
  8
Cut
 62
7
100
AcDbSpline
 70
8
 71
3
 72
8
 73
4
 74
0
 40
0
 40
0
 40
0
 40
0
 40
1
 40
1
 40
1
 40
1
 10
28.750000
 20
295.462560
 30
0.0
 10
28.750000
 20
296.062580
 30
0.0
 10
28.989640
 20
296.637730
 30
0.0
 10
29.415690
 20
297.060220
 30
0.0
  0
LWPOLYLINE
  5
154
100
AcDbEntity
  8
Cut
 62
7
100
AcDbPolyline
 90
4
 70
0
 10
0.000000
 20
295.000000
 30
0.0
 10
29.850000
 20
294.999830
 30
0.0
 10
29.850000
 20
295.462560
 30
0.0
 10
28.750000
 20
295.462560
 30
0.0
  0
SPLINE
  5
155
100
AcDbEntity
  8
Cut
 62
7
100
AcDbSpline
 70
8
 71
3
 72
8
 73
4
 74
0
 40
0
 40
0
 40
0
 40
0
 40
1
 40
1
 40
1
 40
1
 10
31.542890
 20
299.169690
 30
0.0
 10
31.828890
 20
299.455680
 30
0.0
 10
32.259020
 20
299.541240
 30
0.0
 10
32.632690
 20
299.386460
 30
0.0
  0
LWPOLYLINE
  5
156
100
AcDbEntity
  8
Cut
 62
7
100
AcDbPolyline
 90
2
 70
0
 10
29.415690
 20
297.060220
 30
0.0
 10
31.542890
 20
299.169690
 30
0.0
  0
SPLINE
  5
157
100
AcDbEntity
  8
Cut
 62
7
100
AcDbSpline
 70
8
 71
3
 72
8
 73
4
 74
0
 40
0
 40
0
 40
0
 40
0
 40
1
 40
1
 40
1
 40
1
 10
32.632690
 20
299.386460
 30
0.0
 10
33.006370
 20
299.231680
 30
0.0
 10
33.250010
 20
298.867030
 30
0.0
 10
33.250000
 20
298.462560
 30
0.0
  0
LWPOLYLINE
  5
158
100
AcDbEntity
  8
Cut
 62
7
100
AcDbPolyline
 90
1
 70
1
 10
32.632690
 20
299.386460
 30
0.0
  0
SPLINE
  5
159
100
AcDbEntity
  8
Cut
 62
7
100
AcDbSpline
 70
8
 71
3
 72
8
 73
4
 74
0
 40
0
 40
0
 40
0
 40
0
 40
1
 40
1
 40
1
 40
1
 10
40.749600
 20
298.499820
 30
0.0
 10
40.749610
 20
298.904290
 30
0.0
 10
40.993250
 20
299.268910
 30
0.0
 10
41.366930
 20
299.423690
 30
0.0
  0
LWPOLYLINE
  5
15a
100
AcDbEntity
  8
Cut
 62
7
100
AcDbPolyline
 90
4
 70
0
 10
33.250000
 20
298.462560
 30
0.0
 10
33.250000
 20
294.999990
 30
0.0
 10
40.749600
 20
294.999990
 30
0.0
 10
40.749600
 20
298.499820
 30
0.0
  0
SPLINE
  5
15b
100
AcDbEntity
  8
Cut
 62
7
100
AcDbSpline
 70
8
 71
3
 72
8
 73
4
 74
0
 40
0
 40
0
 40
0
 40
0
 40
1
 40
1
 40
1
 40
1
 10
41.366930
 20
299.423690
 30
0.0
 10
41.740600
 20
299.578470
 30
0.0
 10
42.170720
 20
299.492890
 30
0.0
 10
42.456710
 20
299.206920
 30
0.0
  0
LWPOLYLINE
  5
15c
100
AcDbEntity
  8
Cut
 62
7
100
AcDbPolyline
 90
1
 70
1
 10
41.366930
 20
299.423690
 30
0.0
  0
SPLINE
  5
15d
100
AcDbEntity
  8
Cut
 62
7
100
AcDbSpline
 70
8
 71
3
 72
8
 73
4
 74
0
 40
0
 40
0
 40
0
 40
0
 40
1
 40
1
 40
1
 40
1
 10
44.578030
 20
297.085620
 30
0.0
 10
45.003320
 20
296.667000
 30
0.0
 10
45.244890
 20
296.096580
 30
0.0
 10
45.249600
 20
295.499840
 30
0.0
  0
LWPOLYLINE
  5
15e
100
AcDbEntity
  8
Cut
 62
7
100
AcDbPolyline
 90
2
 70
0
 10
42.456710
 20
299.206920
 30
0.0
 10
44.578030
 20
297.085620
 30
0.0
  0
SPLINE
  5
15f
100
AcDbEntity
  8
Cut
 62
7
100
AcDbSpline
 70
8
 71
3
 72
8
 73
4
 74
0
 40
0
 40
0
 40
0
 40
0
 40
1
 40
1
 40
1
 40
1
 10
109.750000
 20
295.462560
 30
0.0
 10
109.750000
 20
296.062580
 30
0.0
 10
109.989640
 20
296.637730
 30
0.0
 10
110.415690
 20
297.060220
 30
0.0
  0
LWPOLYLINE
  5
160
100
AcDbEntity
  8
Cut
 62
7
100
AcDbPolyline
 90
11
 70
0
 10
45.249600
 20
295.499840
 30
0.0
 10
44.149600
 20
295.499810
 30
0.0
 10
44.149600
 20
294.999990
 30
0.0
 10
69.000000
 20
295.000000
 30
0.0
 10
69.000000
 20
260.000008
 30
0.0
 10
79.125000
 20
240.000008
 30
0.0
 10
89.000000
 20
260.000008
 30
0.0
 10
89.000000
 20
295.000000
 30
0.0
 10
110.850000
 20
294.999830
 30
0.0
 10
110.850000
 20
295.462560
 30
0.0
 10
109.750000
 20
295.462560
 30
0.0
  0
SPLINE
  5
161
100
AcDbEntity
  8
Cut
 62
7
100
AcDbSpline
 70
8
 71
3
 72
8
 73
4
 74
0
 40
0
 40
0
 40
0
 40
0
 40
1
 40
1
 40
1
 40
1
 10
112.542890
 20
299.169690
 30
0.0
 10
112.828890
 20
299.455680
 30
0.0
 10
113.259020
 20
299.541240
 30
0.0
 10
113.632690
 20
299.386460
 30
0.0
  0
LWPOLYLINE
  5
162
100
AcDbEntity
  8
Cut
 62
7
100
AcDbPolyline
 90
2
 70
0
 10
110.415690
 20
297.060220
 30
0.0
 10
112.542890
 20
299.169690
 30
0.0
  0
SPLINE
  5
163
100
AcDbEntity
  8
Cut
 62
7
100
AcDbSpline
 70
8
 71
3
 72
8
 73
4
 74
0
 40
0
 40
0
 40
0
 40
0
 40
1
 40
1
 40
1
 40
1
 10
113.632690
 20
299.386460
 30
0.0
 10
114.006370
 20
299.231680
 30
0.0
 10
114.250010
 20
298.867030
 30
0.0
 10
114.250000
 20
298.462560
 30
0.0
  0
LWPOLYLINE
  5
164
100
AcDbEntity
  8
Cut
 62
7
100
AcDbPolyline
 90
1
 70
1
 10
113.632690
 20
299.386460
 30
0.0
  0
SPLINE
  5
165
100
AcDbEntity
  8
Cut
 62
7
100
AcDbSpline
 70
8
 71
3
 72
8
 73
4
 74
0
 40
0
 40
0
 40
0
 40
0
 40
1
 40
1
 40
1
 40
1
 10
121.749600
 20
298.499820
 30
0.0
 10
121.749610
 20
298.904290
 30
0.0
 10
121.993250
 20
299.268910
 30
0.0
 10
122.366930
 20
299.423690
 30
0.0
  0
LWPOLYLINE
  5
166
100
AcDbEntity
  8
Cut
 62
7
100
AcDbPolyline
 90
4
 70
0
 10
114.250000
 20
298.462560
 30
0.0
 10
114.250000
 20
294.999990
 30
0.0
 10
121.749600
 20
294.999990
 30
0.0
 10
121.749600
 20
298.499820
 30
0.0
  0
SPLINE
  5
167
100
AcDbEntity
  8
Cut
 62
7
100
AcDbSpline
 70
8
 71
3
 72
8
 73
4
 74
0
 40
0
 40
0
 40
0
 40
0
 40
1
 40
1
 40
1
 40
1
 10
122.366930
 20
299.423690
 30
0.0
 10
122.740600
 20
299.578470
 30
0.0
 10
123.170720
 20
299.492890
 30
0.0
 10
123.456710
 20
299.206920
 30
0.0
  0
LWPOLYLINE
  5
168
100
AcDbEntity
  8
Cut
 62
7
100
AcDbPolyline
 90
1
 70
1
 10
122.366930
 20
299.423690
 30
0.0
  0
SPLINE
  5
169
100
AcDbEntity
  8
Cut
 62
7
100
AcDbSpline
 70
8
 71
3
 72
8
 73
4
 74
0
 40
0
 40
0
 40
0
 40
0
 40
1
 40
1
 40
1
 40
1
 10
125.578030
 20
297.085620
 30
0.0
 10
126.003320
 20
296.667000
 30
0.0
 10
126.244890
 20
296.096580
 30
0.0
 10
126.249600
 20
295.499840
 30
0.0
  0
LWPOLYLINE
  5
16a
100
AcDbEntity
  8
Cut
 62
7
100
AcDbPolyline
 90
2
 70
0
 10
123.456710
 20
299.206920
 30
0.0
 10
125.578030
 20
297.085620
 30
0.0
  0
SPLINE
  5
16b
100
AcDbEntity
  8
Cut
 62
7
100
AcDbSpline
 70
8
 71
3
 72
8
 73
4
 74
0
 40
0
 40
0
 40
0
 40
0
 40
1
 40
1
 40
1
 40
1
 10
176.750000
 20
295.462560
 30
0.0
 10
176.750000
 20
296.062580
 30
0.0
 10
176.989640
 20
296.637730
 30
0.0
 10
177.415690
 20
297.060220
 30
0.0
  0
LWPOLYLINE
  5
16c
100
AcDbEntity
  8
Cut
 62
7
100
AcDbPolyline
 90
11
 70
0
 10
126.249600
 20
295.499840
 30
0.0
 10
125.149600
 20
295.499810
 30
0.0
 10
125.149600
 20
294.999990
 30
0.0
 10
147.000000
 20
295.000000
 30
0.0
 10
147.000000
 20
260.000008
 30
0.0
 10
157.125000
 20
240.000008
 30
0.0
 10
167.000000
 20
260.000008
 30
0.0
 10
167.000000
 20
294.999995
 30
0.0
 10
177.850000
 20
294.999830
 30
0.0
 10
177.850000
 20
295.462560
 30
0.0
 10
176.750000
 20
295.462560
 30
0.0
  0
SPLINE
  5
16d
100
AcDbEntity
  8
Cut
 62
7
100
AcDbSpline
 70
8
 71
3
 72
8
 73
4
 74
0
 40
0
 40
0
 40
0
 40
0
 40
1
 40
1
 40
1
 40
1
 10
179.542890
 20
299.169690
 30
0.0
 10
179.828890
 20
299.455680
 30
0.0
 10
180.259020
 20
299.541240
 30
0.0
 10
180.632690
 20
299.386460
 30
0.0
  0
LWPOLYLINE
  5
16e
100
AcDbEntity
  8
Cut
 62
7
100
AcDbPolyline
 90
2
 70
0
 10
177.415690
 20
297.060220
 30
0.0
 10
179.542890
 20
299.169690
 30
0.0
  0
SPLINE
  5
16f
100
AcDbEntity
  8
Cut
 62
7
100
AcDbSpline
 70
8
 71
3
 72
8
 73
4
 74
0
 40
0
 40
0
 40
0
 40
0
 40
1
 40
1
 40
1
 40
1
 10
180.632690
 20
299.386460
 30
0.0
 10
181.006370
 20
299.231680
 30
0.0
 10
181.250010
 20
298.867030
 30
0.0
 10
181.250000
 20
298.462560
 30
0.0
  0
LWPOLYLINE
  5
170
100
AcDbEntity
  8
Cut
 62
7
100
AcDbPolyline
 90
1
 70
1
 10
180.632690
 20
299.386460
 30
0.0
  0
SPLINE
  5
171
100
AcDbEntity
  8
Cut
 62
7
100
AcDbSpline
 70
8
 71
3
 72
8
 73
4
 74
0
 40
0
 40
0
 40
0
 40
0
 40
1
 40
1
 40
1
 40
1
 10
188.749600
 20
298.499820
 30
0.0
 10
188.749610
 20
298.904290
 30
0.0
 10
188.993250
 20
299.268910
 30
0.0
 10
189.366930
 20
299.423690
 30
0.0
  0
LWPOLYLINE
  5
172
100
AcDbEntity
  8
Cut
 62
7
100
AcDbPolyline
 90
4
 70
0
 10
181.250000
 20
298.462560
 30
0.0
 10
181.250000
 20
294.999990
 30
0.0
 10
188.749600
 20
294.999990
 30
0.0
 10
188.749600
 20
298.499820
 30
0.0
  0
SPLINE
  5
173
100
AcDbEntity
  8
Cut
 62
7
100
AcDbSpline
 70
8
 71
3
 72
8
 73
4
 74
0
 40
0
 40
0
 40
0
 40
0
 40
1
 40
1
 40
1
 40
1
 10
189.366930
 20
299.423690
 30
0.0
 10
189.740600
 20
299.578470
 30
0.0
 10
190.170720
 20
299.492890
 30
0.0
 10
190.456710
 20
299.206920
 30
0.0
  0
LWPOLYLINE
  5
174
100
AcDbEntity
  8
Cut
 62
7
100
AcDbPolyline
 90
1
 70
1
 10
189.366930
 20
299.423690
 30
0.0
  0
SPLINE
  5
175
100
AcDbEntity
  8
Cut
 62
7
100
AcDbSpline
 70
8
 71
3
 72
8
 73
4
 74
0
 40
0
 40
0
 40
0
 40
0
 40
1
 40
1
 40
1
 40
1
 10
192.578030
 20
297.085620
 30
0.0
 10
193.003320
 20
296.667000
 30
0.0
 10
193.244890
 20
296.096580
 30
0.0
 10
193.249600
 20
295.499840
 30
0.0
  0
LWPOLYLINE
  5
176
100
AcDbEntity
  8
Cut
 62
7
100
AcDbPolyline
 90
2
 70
0
 10
190.456710
 20
299.206920
 30
0.0
 10
192.578030
 20
297.085620
 30
0.0
  0
LWPOLYLINE
  5
177
100
AcDbEntity
  8
Cut
 62
7
100
AcDbPolyline
 90
6
 70
0
 10
193.249600
 20
295.499840
 30
0.0
 10
192.149600
 20
295.499810
 30
0.0
 10
192.149600
 20
294.999990
 30
0.0
 10
203.000000
 20
294.999999
 30
0.0
 10
203.000000
 20
240.000008
 30
0.0
 10
217.000000
 20
240.000008
 30
0.0
  0
LWPOLYLINE
  5
178
100
AcDbEntity
  8
Cut
 62
7
100
AcDbPolyline
 90
3
 70
0
 10
23.000000
 20
275.000000
 30
0.0
 10
23.000000
 20
23.000000
 30
0.0
 10
216.000000
 20
22.999950
 30
0.0
  0
LWPOLYLINE
  5
179
100
AcDbEntity
  8
Cut
 62
7
100
AcDbPolyline
 90
2
 70
0
 10
49.000000
 20
240.000008
 30
0.0
 10
26.000000
 20
240.000000
 30
0.0
  0
LWPOLYLINE
  5
17a
100
AcDbEntity
  8
Cut
 62
7
100
AcDbPolyline
 90
2
 70
0
 10
77.000000
 20
240.000008
 30
0.0
 10
52.000000
 20
240.000008
 30
0.0
  0
LWPOLYLINE
  5
17b
100
AcDbEntity
  8
Cut
 62
1
100
AcDbPolyline
 90
2
 70
0
 10
174.883330
 20
15.295820
 30
0.0
 10
172.766660
 20
20.852070
 30
0.0
  0
LWPOLYLINE
  5
17c
100
AcDbEntity
  8
Cut
 62
1
100
AcDbPolyline
 90
2
 70
0
 10
174.883330
 20
15.295820
 30
0.0
 10
177.000000
 20
20.852070
 30
0.0
  0
LWPOLYLINE
  5
17d
100
AcDbEntity
  8
Cut
 62
1
100
AcDbPolyline
 90
2
 70
0
 10
173.560410
 20
18.999990
 30
0.0
 10
176.206250
 20
18.999990
 30
0.0
  0
LWPOLYLINE
  5
17e
100
AcDbEntity
  8
Cut
 62
1
100
AcDbPolyline
 90
2
 70
0
 10
143.000000
 20
15.295820
 30
0.0
 10
143.000000
 20
20.852070
 30
0.0
  0
LWPOLYLINE
  5
17f
100
AcDbEntity
  8
Cut
 62
1
100
AcDbPolyline
 90
9
 70
0
 10
143.000000
 20
15.295820
 30
0.0
 10
145.381250
 20
15.295820
 30
0.0
 10
146.175000
 20
15.560400
 30
0.0
 10
146.439580
 20
15.824990
 30
0.0
 10
146.704160
 20
16.354150
 30
0.0
 10
146.704160
 20
16.883320
 30
0.0
 10
146.439580
 20
17.412490
 30
0.0
 10
146.175000
 20
17.677070
 30
0.0
 10
145.381250
 20
17.941650
 30
0.0
  0
LWPOLYLINE
  5
180
100
AcDbEntity
  8
Cut
 62
1
100
AcDbPolyline
 90
10
 70
0
 10
143.000000
 20
17.941650
 30
0.0
 10
145.381250
 20
17.941650
 30
0.0
 10
146.175000
 20
18.206240
 30
0.0
 10
146.439580
 20
18.470820
 30
0.0
 10
146.704160
 20
18.999990
 30
0.0
 10
146.704160
 20
19.793740
 30
0.0
 10
146.439580
 20
20.322900
 30
0.0
 10
146.175000
 20
20.587490
 30
0.0
 10
145.381250
 20
20.852070
 30
0.0
 10
143.000000
 20
20.852070
 30
0.0
  0
LWPOLYLINE
  5
181
100
AcDbEntity
  8
Cut
 62
1
100
AcDbPolyline
 90
18
 70
0
 10
116.910420
 20
16.618740
 30
0.0
 10
116.645830
 20
16.089570
 30
0.0
 10
116.116670
 20
15.560400
 30
0.0
 10
115.587500
 20
15.295820
 30
0.0
 10
114.529170
 20
15.295820
 30
0.0
 10
114.000000
 20
15.560400
 30
0.0
 10
113.470830
 20
16.089570
 30
0.0
 10
113.206250
 20
16.618740
 30
0.0
 10
112.941670
 20
17.412490
 30
0.0
 10
112.941670
 20
18.735400
 30
0.0
 10
113.206250
 20
19.529150
 30
0.0
 10
113.470830
 20
20.058320
 30
0.0
 10
114.000000
 20
20.587490
 30
0.0
 10
114.529170
 20
20.852070
 30
0.0
 10
115.587500
 20
20.852070
 30
0.0
 10
116.116670
 20
20.587490
 30
0.0
 10
116.645830
 20
20.058320
 30
0.0
 10
116.910420
 20
19.529150
 30
0.0
  0
LWPOLYLINE
  5
182
100
AcDbEntity
  8
Cut
 62
1
100
AcDbPolyline
 90
4
 70
0
 10
42.677090
 20
234.497907
 30
0.0
 10
43.206250
 20
234.762487
 30
0.0
 10
44.000000
 20
235.556237
 30
0.0
 10
44.000000
 20
229.999987
 30
0.0
  0
LWPOLYLINE
  5
183
100
AcDbEntity
  8
Cut
 62
1
100
AcDbPolyline
 90
14
 70
0
 10
122.264580
 20
234.233317
 30
0.0
 10
122.264580
 20
234.497907
 30
0.0
 10
122.529160
 20
235.027067
 30
0.0
 10
122.793750
 20
235.291657
 30
0.0
 10
123.322910
 20
235.556237
 30
0.0
 10
124.381250
 20
235.556237
 30
0.0
 10
124.910410
 20
235.291657
 30
0.0
 10
125.175000
 20
235.027067
 30
0.0
 10
125.439580
 20
234.497907
 30
0.0
 10
125.439580
 20
233.968737
 30
0.0
 10
125.175000
 20
233.439567
 30
0.0
 10
124.645830
 20
232.645817
 30
0.0
 10
122.000000
 20
229.999987
 30
0.0
 10
125.704160
 20
229.999987
 30
0.0
  0
LWPOLYLINE
  5
184
100
AcDbEntity
  8
Cut
 62
1
100
AcDbPolyline
 90
15
 70
0
 10
189.412500
 20
235.556237
 30
0.0
 10
192.322920
 20
235.556237
 30
0.0
 10
190.735420
 20
233.439567
 30
0.0
 10
191.529170
 20
233.439567
 30
0.0
 10
192.058340
 20
233.174987
 30
0.0
 10
192.322920
 20
232.910407
 30
0.0
 10
192.587500
 20
232.116657
 30
0.0
 10
192.587500
 20
231.587487
 30
0.0
 10
192.322920
 20
230.793737
 30
0.0
 10
191.793750
 20
230.264567
 30
0.0
 10
191.000000
 20
229.999987
 30
0.0
 10
190.206250
 20
229.999987
 30
0.0
 10
189.412500
 20
230.264567
 30
0.0
 10
189.147920
 20
230.529157
 30
0.0
 10
188.883340
 20
231.058317
 30
0.0
  0
LWPOLYLINE
  5
185
100
AcDbEntity
  8
Cut
 62
1
100
AcDbPolyline
 90
3
 70
0
 10
55.677080
 20
43.239680
 30
0.0
 10
53.031250
 20
39.535510
 30
0.0
 10
57.000000
 20
39.535510
 30
0.0
  0
LWPOLYLINE
  5
186
100
AcDbEntity
  8
Cut
 62
1
100
AcDbPolyline
 90
2
 70
0
 10
55.677080
 20
43.239680
 30
0.0
 10
55.677080
 20
37.683430
 30
0.0
  0
SPLINE
  5
187
100
AcDbEntity
  8
Cut
 62
7
100
AcDbSpline
 70
8
 71
3
 72
8
 73
4
 74
0
 40
0
 40
0
 40
0
 40
0
 40
1
 40
1
 40
1
 40
1
 10
203.000000
 20
22.999300
 30
0.0
 10
208.522850
 20
22.999300
 30
0.0
 10
213.000000
 20
18.522460
 30
0.0
 10
213.000000
 20
13.000000
 30
0.0
  0
SPLINE
  5
188
100
AcDbEntity
  8
Cut
 62
7
100
AcDbSpline
 70
8
 71
3
 72
8
 73
4
 74
0
 40
0
 40
0
 40
0
 40
0
 40
1
 40
1
 40
1
 40
1
 10
213.000000
 20
13.000000
 30
0.0
 10
213.000000
 20
7.477540
 30
0.0
 10
208.522850
 20
3.000700
 30
0.0
 10
203.000000
 20
3.000700
 30
0.0
  0
LWPOLYLINE
  5
189
100
AcDbEntity
  8
Cut
 62
1
100
AcDbPolyline
 90
17
 70
0
 10
183.735420
 20
43.278130
 30
0.0
 10
181.089580
 20
43.278130
 30
0.0
 10
180.825000
 20
40.896880
 30
0.0
 10
181.089580
 20
41.161460
 30
0.0
 10
181.883330
 20
41.426050
 30
0.0
 10
182.677080
 20
41.426050
 30
0.0
 10
183.470830
 20
41.161460
 30
0.0
 10
184.000000
 20
40.632300
 30
0.0
 10
184.264580
 20
39.838550
 30
0.0
 10
184.264580
 20
39.309380
 30
0.0
 10
184.000000
 20
38.515630
 30
0.0
 10
183.470830
 20
37.986460
 30
0.0
 10
182.677080
 20
37.721880
 30
0.0
 10
181.883330
 20
37.721880
 30
0.0
 10
181.089580
 20
37.986460
 30
0.0
 10
180.825000
 20
38.251050
 30
0.0
 10
180.560420
 20
38.780210
 30
0.0
  0
LWPOLYLINE
  5
18a
100
AcDbEntity
  8
Cut
 62
7
100
AcDbPolyline
 90
2
 70
0
 10
203.000000
 20
3.000700
 30
0.0
 10
200.000000
 20
0.000000
 30
0.0
  0
LWPOLYLINE
  5
18b
100
AcDbEntity
  8
Cut
 62
7
100
AcDbPolyline
 90
5
 70
0
 10
193.000000
 20
0.000000
 30
0.0
 10
193.000000
 20
13.000000
 30
0.0
 10
193.000000
 20
13.000000
 30
0.0
 10
198.000000
 20
13.000000
 30
0.0
 10
198.000000
 20
13.000000
 30
0.0
  0
LWPOLYLINE
  5
18c
100
AcDbEntity
  8
Cut
 62
7
100
AcDbPolyline
 90
2
 70
0
 10
170.000000
 20
23.000000
 30
0.0
 10
170.000000
 20
21.000000
 30
0.0
  0
LWPOLYLINE
  5
18d
100
AcDbEntity
  8
Cut
 62
7
100
AcDbPolyline
 90
4
 70
0
 10
170.000000
 20
20.000000
 30
0.0
 10
170.000000
 20
13.000000
 30
0.0
 10
175.000000
 20
13.000000
 30
0.0
 10
175.000000
 20
13.000000
 30
0.0
  0
LWPOLYLINE
  5
18e
100
AcDbEntity
  8
Cut
 62
7
100
AcDbPolyline
 90
2
 70
0
 10
140.000000
 20
23.000000
 30
0.0
 10
140.000000
 20
21.000000
 30
0.0
  0
LWPOLYLINE
  5
18f
100
AcDbEntity
  8
Cut
 62
7
100
AcDbPolyline
 90
4
 70
0
 10
140.000000
 20
20.000000
 30
0.0
 10
140.000000
 20
13.000000
 30
0.0
 10
145.000000
 20
13.000000
 30
0.0
 10
145.000000
 20
13.000000
 30
0.0
  0
LWPOLYLINE
  5
190
100
AcDbEntity
  8
Cut
 62
7
100
AcDbPolyline
 90
2
 70
0
 10
110.000000
 20
23.000000
 30
0.0
 10
110.000000
 20
21.000000
 30
0.0
  0
SPLINE
  5
191
100
AcDbEntity
  8
Cut
 62
7
100
AcDbSpline
 70
8
 71
3
 72
8
 73
4
 74
0
 40
0
 40
0
 40
0
 40
0
 40
1
 40
1
 40
1
 40
1
 10
198.000000
 20
13.000000
 30
0.0
 10
198.000000
 20
12.723860
 30
0.0
 10
198.223860
 20
12.500000
 30
0.0
 10
198.500000
 20
12.500000
 30
0.0
  0
SPLINE
  5
192
100
AcDbEntity
  8
Cut
 62
7
100
AcDbSpline
 70
8
 71
3
 72
8
 73
4
 74
0
 40
0
 40
0
 40
0
 40
0
 40
1
 40
1
 40
1
 40
1
 10
198.500000
 20
12.500000
 30
0.0
 10
198.776140
 20
12.500000
 30
0.0
 10
199.000000
 20
12.723860
 30
0.0
 10
199.000000
 20
13.000000
 30
0.0
  0
SPLINE
  5
193
100
AcDbEntity
  8
Cut
 62
7
100
AcDbSpline
 70
8
 71
3
 72
8
 73
4
 74
0
 40
0
 40
0
 40
0
 40
0
 40
1
 40
1
 40
1
 40
1
 10
199.000000
 20
13.000000
 30
0.0
 10
199.000000
 20
13.276150
 30
0.0
 10
198.776140
 20
13.500000
 30
0.0
 10
198.500000
 20
13.500000
 30
0.0
  0
SPLINE
  5
194
100
AcDbEntity
  8
Cut
 62
7
100
AcDbSpline
 70
8
 71
3
 72
8
 73
4
 74
0
 40
0
 40
0
 40
0
 40
0
 40
1
 40
1
 40
1
 40
1
 10
198.500000
 20
13.500000
 30
0.0
 10
198.223860
 20
13.500000
 30
0.0
 10
198.000000
 20
13.276150
 30
0.0
 10
198.000000
 20
13.000000
 30
0.0
  0
LWPOLYLINE
  5
195
100
AcDbEntity
  8
Cut
 62
7
100
AcDbPolyline
 90
4
 70
0
 10
110.000000
 20
20.000000
 30
0.0
 10
110.000000
 20
13.000000
 30
0.0
 10
115.000000
 20
13.000000
 30
0.0
 10
115.000000
 20
13.000000
 30
0.0
  0
SPLINE
  5
196
100
AcDbEntity
  8
Cut
 62
7
100
AcDbSpline
 70
8
 71
3
 72
8
 73
4
 74
0
 40
0
 40
0
 40
0
 40
0
 40
1
 40
1
 40
1
 40
1
 10
175.000000
 20
13.000000
 30
0.0
 10
175.000000
 20
12.723860
 30
0.0
 10
175.223860
 20
12.500000
 30
0.0
 10
175.500000
 20
12.500000
 30
0.0
  0
SPLINE
  5
197
100
AcDbEntity
  8
Cut
 62
7
100
AcDbSpline
 70
8
 71
3
 72
8
 73
4
 74
0
 40
0
 40
0
 40
0
 40
0
 40
1
 40
1
 40
1
 40
1
 10
175.500000
 20
12.500000
 30
0.0
 10
175.776140
 20
12.500000
 30
0.0
 10
176.000000
 20
12.723860
 30
0.0
 10
176.000000
 20
13.000000
 30
0.0
  0
SPLINE
  5
198
100
AcDbEntity
  8
Cut
 62
7
100
AcDbSpline
 70
8
 71
3
 72
8
 73
4
 74
0
 40
0
 40
0
 40
0
 40
0
 40
1
 40
1
 40
1
 40
1
 10
176.000000
 20
13.000000
 30
0.0
 10
176.000000
 20
13.276150
 30
0.0
 10
175.776140
 20
13.500000
 30
0.0
 10
175.500000
 20
13.500000
 30
0.0
  0
SPLINE
  5
199
100
AcDbEntity
  8
Cut
 62
7
100
AcDbSpline
 70
8
 71
3
 72
8
 73
4
 74
0
 40
0
 40
0
 40
0
 40
0
 40
1
 40
1
 40
1
 40
1
 10
175.500000
 20
13.500000
 30
0.0
 10
175.223860
 20
13.500000
 30
0.0
 10
175.000000
 20
13.276150
 30
0.0
 10
175.000000
 20
13.000000
 30
0.0
  0
LWPOLYLINE
  5
19a
100
AcDbEntity
  8
Cut
 62
7
100
AcDbPolyline
 90
1
 70
1
 10
198.000000
 20
13.000000
 30
0.0
  0
SPLINE
  5
19b
100
AcDbEntity
  8
Cut
 62
7
100
AcDbSpline
 70
8
 71
3
 72
8
 73
4
 74
0
 40
0
 40
0
 40
0
 40
0
 40
1
 40
1
 40
1
 40
1
 10
145.000000
 20
13.000000
 30
0.0
 10
145.000000
 20
12.723860
 30
0.0
 10
145.223860
 20
12.500000
 30
0.0
 10
145.500000
 20
12.500000
 30
0.0
  0
SPLINE
  5
19c
100
AcDbEntity
  8
Cut
 62
7
100
AcDbSpline
 70
8
 71
3
 72
8
 73
4
 74
0
 40
0
 40
0
 40
0
 40
0
 40
1
 40
1
 40
1
 40
1
 10
145.500000
 20
12.500000
 30
0.0
 10
145.776140
 20
12.500000
 30
0.0
 10
146.000000
 20
12.723860
 30
0.0
 10
146.000000
 20
13.000000
 30
0.0
  0
SPLINE
  5
19d
100
AcDbEntity
  8
Cut
 62
7
100
AcDbSpline
 70
8
 71
3
 72
8
 73
4
 74
0
 40
0
 40
0
 40
0
 40
0
 40
1
 40
1
 40
1
 40
1
 10
146.000000
 20
13.000000
 30
0.0
 10
146.000000
 20
13.276150
 30
0.0
 10
145.776140
 20
13.500000
 30
0.0
 10
145.500000
 20
13.500000
 30
0.0
  0
SPLINE
  5
19e
100
AcDbEntity
  8
Cut
 62
7
100
AcDbSpline
 70
8
 71
3
 72
8
 73
4
 74
0
 40
0
 40
0
 40
0
 40
0
 40
1
 40
1
 40
1
 40
1
 10
145.500000
 20
13.500000
 30
0.0
 10
145.223860
 20
13.500000
 30
0.0
 10
145.000000
 20
13.276150
 30
0.0
 10
145.000000
 20
13.000000
 30
0.0
  0
LWPOLYLINE
  5
19f
100
AcDbEntity
  8
Cut
 62
7
100
AcDbPolyline
 90
1
 70
1
 10
175.000000
 20
13.000000
 30
0.0
  0
SPLINE
  5
1a0
100
AcDbEntity
  8
Cut
 62
7
100
AcDbSpline
 70
8
 71
3
 72
8
 73
4
 74
0
 40
0
 40
0
 40
0
 40
0
 40
1
 40
1
 40
1
 40
1
 10
115.000000
 20
13.000000
 30
0.0
 10
115.000000
 20
12.723860
 30
0.0
 10
115.223860
 20
12.500000
 30
0.0
 10
115.500000
 20
12.500000
 30
0.0
  0
SPLINE
  5
1a1
100
AcDbEntity
  8
Cut
 62
7
100
AcDbSpline
 70
8
 71
3
 72
8
 73
4
 74
0
 40
0
 40
0
 40
0
 40
0
 40
1
 40
1
 40
1
 40
1
 10
115.500000
 20
12.500000
 30
0.0
 10
115.776140
 20
12.500000
 30
0.0
 10
116.000000
 20
12.723860
 30
0.0
 10
116.000000
 20
13.000000
 30
0.0
  0
SPLINE
  5
1a2
100
AcDbEntity
  8
Cut
 62
7
100
AcDbSpline
 70
8
 71
3
 72
8
 73
4
 74
0
 40
0
 40
0
 40
0
 40
0
 40
1
 40
1
 40
1
 40
1
 10
116.000000
 20
13.000000
 30
0.0
 10
116.000000
 20
13.276150
 30
0.0
 10
115.776140
 20
13.500000
 30
0.0
 10
115.500000
 20
13.500000
 30
0.0
  0
SPLINE
  5
1a3
100
AcDbEntity
  8
Cut
 62
7
100
AcDbSpline
 70
8
 71
3
 72
8
 73
4
 74
0
 40
0
 40
0
 40
0
 40
0
 40
1
 40
1
 40
1
 40
1
 10
115.500000
 20
13.500000
 30
0.0
 10
115.223860
 20
13.500000
 30
0.0
 10
115.000000
 20
13.276150
 30
0.0
 10
115.000000
 20
13.000000
 30
0.0
  0
LWPOLYLINE
  5
1a4
100
AcDbEntity
  8
Cut
 62
7
100
AcDbPolyline
 90
1
 70
1
 10
145.000000
 20
13.000000
 30
0.0
  0
SPLINE
  5
1a5
100
AcDbEntity
  8
Cut
 62
7
100
AcDbSpline
 70
8
 71
3
 72
8
 73
4
 74
0
 40
0
 40
0
 40
0
 40
0
 40
1
 40
1
 40
1
 40
1
 10
202.000000
 20
208.000001
 30
0.0
 10
202.000000
 20
207.723861
 30
0.0
 10
202.223860
 20
207.500001
 30
0.0
 10
202.500000
 20
207.500001
 30
0.0
  0
SPLINE
  5
1a6
100
AcDbEntity
  8
Cut
 62
7
100
AcDbSpline
 70
8
 71
3
 72
8
 73
4
 74
0
 40
0
 40
0
 40
0
 40
0
 40
1
 40
1
 40
1
 40
1
 10
202.500000
 20
207.500001
 30
0.0
 10
202.776140
 20
207.500001
 30
0.0
 10
203.000000
 20
207.723861
 30
0.0
 10
203.000000
 20
208.000001
 30
0.0
  0
SPLINE
  5
1a7
100
AcDbEntity
  8
Cut
 62
7
100
AcDbSpline
 70
8
 71
3
 72
8
 73
4
 74
0
 40
0
 40
0
 40
0
 40
0
 40
1
 40
1
 40
1
 40
1
 10
203.000000
 20
208.000001
 30
0.0
 10
203.000000
 20
208.276151
 30
0.0
 10
202.776140
 20
208.500001
 30
0.0
 10
202.500000
 20
208.500001
 30
0.0
  0
SPLINE
  5
1a8
100
AcDbEntity
  8
Cut
 62
7
100
AcDbSpline
 70
8
 71
3
 72
8
 73
4
 74
0
 40
0
 40
0
 40
0
 40
0
 40
1
 40
1
 40
1
 40
1
 10
202.500000
 20
208.500001
 30
0.0
 10
202.223860
 20
208.500001
 30
0.0
 10
202.000000
 20
208.276151
 30
0.0
 10
202.000000
 20
208.000001
 30
0.0
  0
LWPOLYLINE
  5
1a9
100
AcDbEntity
  8
Cut
 62
7
100
AcDbPolyline
 90
1
 70
1
 10
115.000000
 20
13.000000
 30
0.0
  0
SPLINE
  5
1aa
100
AcDbEntity
  8
Cut
 62
7
100
AcDbSpline
 70
8
 71
3
 72
8
 73
4
 74
0
 40
0
 40
0
 40
0
 40
0
 40
1
 40
1
 40
1
 40
1
 10
22.504362
 20
275.495638
 30
0.0
 10
22.504362
 20
275.219498
 30
0.0
 10
22.728222
 20
274.995638
 30
0.0
 10
23.004362
 20
274.995638
 30
0.0
  0
SPLINE
  5
1ab
100
AcDbEntity
  8
Cut
 62
7
100
AcDbSpline
 70
8
 71
3
 72
8
 73
4
 74
0
 40
0
 40
0
 40
0
 40
0
 40
1
 40
1
 40
1
 40
1
 10
23.004362
 20
274.995638
 30
0.0
 10
23.280502
 20
274.995638
 30
0.0
 10
23.504362
 20
275.219498
 30
0.0
 10
23.504362
 20
275.495638
 30
0.0
  0
SPLINE
  5
1ac
100
AcDbEntity
  8
Cut
 62
7
100
AcDbSpline
 70
8
 71
3
 72
8
 73
4
 74
0
 40
0
 40
0
 40
0
 40
0
 40
1
 40
1
 40
1
 40
1
 10
23.504362
 20
275.495638
 30
0.0
 10
23.504362
 20
275.771788
 30
0.0
 10
23.280502
 20
275.995638
 30
0.0
 10
23.004362
 20
275.995638
 30
0.0
  0
SPLINE
  5
1ad
100
AcDbEntity
  8
Cut
 62
7
100
AcDbSpline
 70
8
 71
3
 72
8
 73
4
 74
0
 40
0
 40
0
 40
0
 40
0
 40
1
 40
1
 40
1
 40
1
 10
23.004362
 20
275.995638
 30
0.0
 10
22.728222
 20
275.995638
 30
0.0
 10
22.504362
 20
275.771788
 30
0.0
 10
22.504362
 20
275.495638
 30
0.0
  0
LWPOLYLINE
  5
1ae
100
AcDbEntity
  8
Cut
 62
7
100
AcDbPolyline
 90
1
 70
1
 10
202.000000
 20
208.000001
 30
0.0
  0
LWPOLYLINE
  5
1af
100
AcDbEntity
  8
Cut
 62
7
100
AcDbPolyline
 90
1
 70
1
 10
22.504362
 20
275.495638
 30
0.0
  0
SPLINE
  5
1b0
100
AcDbEntity
  8
Cut
 62
1
100
AcDbSpline
 70
8
 71
3
 72
8
 73
4
 74
0
 40
0
 40
0
 40
0
 40
0
 40
1
 40
1
 40
1
 40
1
 10
204.000000
 20
17.000000
 30
0.0
 10
208.000000
 20
17.000000
 30
0.0
 10
208.000000
 20
17.000000
 30
0.0
 10
208.000000
 20
17.000000
 30
0.0
  0
LWPOLYLINE
  5
1b1
100
AcDbEntity
  8
Cut
 62
1
100
AcDbPolyline
 90
23
 70
0
 10
207.455210
 20
11.618710
 30
0.0
 10
207.190630
 20
11.089540
 30
0.0
 10
206.396880
 20
10.824960
 30
0.0
 10
205.867710
 20
10.824960
 30
0.0
 10
205.073960
 20
11.089540
 30
0.0
 10
204.544790
 20
11.883290
 30
0.0
 10
204.280210
 20
13.206210
 30
0.0
 10
204.280210
 20
14.529130
 30
0.0
 10
204.544790
 20
15.587460
 30
0.0
 10
205.073960
 20
16.116630
 30
0.0
 10
205.867710
 20
16.381210
 30
0.0
 10
206.132290
 20
16.381210
 30
0.0
 10
206.926040
 20
16.116630
 30
0.0
 10
207.455210
 20
15.587460
 30
0.0
 10
207.719790
 20
14.793710
 30
0.0
 10
207.719790
 20
14.529130
 30
0.0
 10
207.455210
 20
13.735380
 30
0.0
 10
206.926040
 20
13.206210
 30
0.0
 10
206.132290
 20
12.941630
 30
0.0
 10
205.867710
 20
12.941630
 30
0.0
 10
205.073960
 20
13.206210
 30
0.0
 10
204.544790
 20
13.735380
 30
0.0
 10
204.280210
 20
14.529130
 30
0.0
  0
SPLINE
  5
1b2
100
AcDbEntity
  8
Cut
 62
1
100
AcDbSpline
 70
8
 71
3
 72
8
 73
4
 74
0
 40
0
 40
0
 40
0
 40
0
 40
1
 40
1
 40
1
 40
1
 10
206.280200
 20
220.912480
 30
0.0
 10
202.280200
 20
220.912480
 30
0.0
 10
202.280200
 20
220.912480
 30
0.0
 10
202.280200
 20
220.912480
 30
0.0
  0
LWPOLYLINE
  5
1b3
100
AcDbEntity
  8
Cut
 62
1
100
AcDbPolyline
 90
23
 70
0
 10
202.824990
 20
226.293770
 30
0.0
 10
203.089570
 20
226.822940
 30
0.0
 10
203.883320
 20
227.087520
 30
0.0
 10
204.412490
 20
227.087520
 30
0.0
 10
205.206240
 20
226.822940
 30
0.0
 10
205.735410
 20
226.029190
 30
0.0
 10
205.999990
 20
224.706270
 30
0.0
 10
205.999990
 20
223.383350
 30
0.0
 10
205.735410
 20
222.325020
 30
0.0
 10
205.206240
 20
221.795850
 30
0.0
 10
204.412490
 20
221.531270
 30
0.0
 10
204.147910
 20
221.531270
 30
0.0
 10
203.354160
 20
221.795850
 30
0.0
 10
202.824990
 20
222.325020
 30
0.0
 10
202.560410
 20
223.118770
 30
0.0
 10
202.560410
 20
223.383350
 30
0.0
 10
202.824990
 20
224.177100
 30
0.0
 10
203.354160
 20
224.706270
 30
0.0
 10
204.147910
 20
224.970850
 30
0.0
 10
204.412490
 20
224.970850
 30
0.0
 10
205.206240
 20
224.706270
 30
0.0
 10
205.735410
 20
224.177100
 30
0.0
 10
205.999990
 20
223.383350
 30
0.0
  0
LWPOLYLINE
  5
1b4
100
AcDbEntity
  8
Cut
 62
7
100
AcDbPolyline
 90
4
 70
1
 10
187.000000
 20
225.000024
 30
0.0
 10
192.000000
 20
225.000024
 30
0.0
 10
192.000000
 20
224.000004
 30
0.0
 10
187.000000
 20
224.000004
 30
0.0
  0
LWPOLYLINE
  5
1b5
100
AcDbEntity
  8
Cut
 62
7
100
AcDbPolyline
 90
4
 70
1
 10
183.000000
 20
224.000004
 30
0.0
 10
178.000000
 20
224.000004
 30
0.0
 10
178.000000
 20
225.000024
 30
0.0
 10
183.000000
 20
225.000024
 30
0.0
  0
LWPOLYLINE
  5
1b6
100
AcDbEntity
  8
Cut
 62
7
100
AcDbPolyline
 90
2
 70
0
 10
185.000000
 20
294.999960
 30
0.0
 10
185.000000
 20
289.999972
 30
0.0
  0
LWPOLYLINE
  5
1b7
100
AcDbEntity
  8
Cut
 62
7
100
AcDbPolyline
 90
4
 70
1
 10
120.000000
 20
225.000024
 30
0.0
 10
125.000000
 20
225.000024
 30
0.0
 10
125.000000
 20
224.000004
 30
0.0
 10
120.000000
 20
224.000004
 30
0.0
  0
LWPOLYLINE
  5
1b8
100
AcDbEntity
  8
Cut
 62
7
100
AcDbPolyline
 90
4
 70
1
 10
116.000000
 20
224.000004
 30
0.0
 10
111.000000
 20
224.000004
 30
0.0
 10
111.000000
 20
225.000024
 30
0.0
 10
116.000000
 20
225.000024
 30
0.0
  0
LWPOLYLINE
  5
1b9
100
AcDbEntity
  8
Cut
 62
7
100
AcDbPolyline
 90
2
 70
0
 10
118.000000
 20
294.999960
 30
0.0
 10
118.000000
 20
289.999972
 30
0.0
  0
LWPOLYLINE
  5
1ba
100
AcDbEntity
  8
Cut
 62
7
100
AcDbPolyline
 90
4
 70
1
 10
39.000000
 20
225.000024
 30
0.0
 10
44.000000
 20
225.000024
 30
0.0
 10
44.000000
 20
224.000004
 30
0.0
 10
39.000000
 20
224.000004
 30
0.0
  0
LWPOLYLINE
  5
1bb
100
AcDbEntity
  8
Cut
 62
7
100
AcDbPolyline
 90
4
 70
1
 10
35.000000
 20
224.000004
 30
0.0
 10
30.000000
 20
224.000004
 30
0.0
 10
30.000000
 20
225.000024
 30
0.0
 10
35.000000
 20
225.000024
 30
0.0
  0
LWPOLYLINE
  5
1bc
100
AcDbEntity
  8
Cut
 62
7
100
AcDbPolyline
 90
2
 70
0
 10
37.000000
 20
294.999960
 30
0.0
 10
37.000000
 20
289.999972
 30
0.0
  0
LWPOLYLINE
  5
1bd
100
AcDbEntity
  8
Cut
 62
1
100
AcDbPolyline
 90
2
 70
0
 10
37.000000
 20
287.999987
 30
0.0
 10
37.000000
 20
226.999987
 30
0.0
  0
LWPOLYLINE
  5
1be
100
AcDbEntity
  8
Cut
 62
1
100
AcDbPolyline
 90
3
 70
0
 10
39.000000
 20
230.999987
 30
0.0
 10
37.000000
 20
226.999989
 30
0.0
 10
35.000000
 20
230.999987
 30
0.0
  0
LWPOLYLINE
  5
1bf
100
AcDbEntity
  8
Cut
 62
1
100
AcDbPolyline
 90
2
 70
0
 10
118.000000
 20
287.999987
 30
0.0
 10
118.000000
 20
226.999987
 30
0.0
  0
LWPOLYLINE
  5
1c0
100
AcDbEntity
  8
Cut
 62
1
100
AcDbPolyline
 90
3
 70
0
 10
120.000000
 20
230.999987
 30
0.0
 10
118.000000
 20
226.999989
 30
0.0
 10
116.000000
 20
230.999987
 30
0.0
  0
LWPOLYLINE
  5
1c1
100
AcDbEntity
  8
Cut
 62
1
100
AcDbPolyline
 90
2
 70
0
 10
185.000000
 20
287.999987
 30
0.0
 10
185.000000
 20
226.999987
 30
0.0
  0
LWPOLYLINE
  5
1c2
100
AcDbEntity
  8
Cut
 62
1
100
AcDbPolyline
 90
3
 70
0
 10
187.000000
 20
230.999987
 30
0.0
 10
185.000000
 20
226.999989
 30
0.0
 10
183.000000
 20
230.999987
 30
0.0
  0
LWPOLYLINE
  5
1c3
100
AcDbEntity
  8
Cut
 62
1
100
AcDbPolyline
 90
2
 70
0
 10
58.000000
 20
40.500010
 30
0.0
 10
76.000003
 20
40.500010
 30
0.0
  0
LWPOLYLINE
  5
1c4
100
AcDbEntity
  8
Cut
 62
1
100
AcDbPolyline
 90
3
 70
0
 10
72.000003
 20
42.500010
 30
0.0
 10
76.000001
 20
40.500010
 30
0.0
 10
72.000003
 20
38.500010
 30
0.0
  0
LWPOLYLINE
  5
1c5
100
AcDbEntity
  8
Cut
 62
1
100
AcDbPolyline
 90
2
 70
0
 10
178.000000
 20
40.500010
 30
0.0
 10
159.999997
 20
40.500010
 30
0.0
  0
LWPOLYLINE
  5
1c6
100
AcDbEntity
  8
Cut
 62
1
100
AcDbPolyline
 90
3
 70
0
 10
163.999997
 20
42.500010
 30
0.0
 10
159.999999
 20
40.500010
 30
0.0
 10
163.999997
 20
38.500010
 30
0.0
  0
ENDSEC
  0
SECTION
  2
OBJECTS
  0
DICTIONARY
  5
C
330
0
100
AcDbDictionary
  3
ACAD_GROUP
350
D
  3
ACAD_MLINESTYLE
350
17
  0
DICTIONARY
  5
D
330
C
100
AcDbDictionary
  0
DICTIONARY
  5
1A
330
C
100
AcDbDictionary
  0
DICTIONARY
  5
17
330
C
100
AcDbDictionary
  3
STANDARD
350
18
  0
DICTIONARY
  5
19
330
C
100
AcDbDictionary
  0
ENDSEC
  0
EOF
